Official  site  of  Bass-guitars

 

Новости
Бас-гитаристы
Bass Day
Бас аудио CD
Бас-пресса
История в лицах
Заказ инструментов
Уроки и упражнения
Бас табулатуры
Видео уроки
Интерактивная школа
Домашняя студия
Бас усиление
Процессоры
Каталоги бас-гитар
Ссылки
Гостевая книга
Форум
Гитарный тюнер
 
BASS-SHOP

Pokep.DE Сайт о реальной музЫке !

Rambler's Top100

Рейтинг@Mail.ru

Шагающий бас

Для этого упражнения рекомендуется стандартный строй бас-гитары (G,D,A,E). Все упражнения делайте под метроном или, если его нет, притопывайте вашей ногой, таким образом генерируя ритм игры. Начинайте играть медленно. Лучше играть медленно и правильно, нежели чем быстро и с ошибками!
1.
|-----------------0-------------|
|-4---0---2-----------0---------|
|-------------4-----------2-----|
|-----------------------------3-|
2. Скорость игры можно увеличить.
|---------------------------------0-0-0-0-------------------------|
|-4-4-4-4-0-0-0-0-2-2-2-2-----------------0-0-0-0-----------------|
|-------------------------4-4-4-4-----------------2-2-2-2---------|
|---------------------------------------------------------3-3-3-3-|

3. Это собственно и есть один из вариантов шагающего баса.
|-----------2-------------------------2---------2-4-------------0-|
|-4-----4-0---4-0-2---------------0-4---4-----2-----0-2-------0---|
|---0-4-------------2-----4-----4---------0-4-----------2---2-----|
|---------------------4-0---0-4---------------------------3-------|

Назад    НАВЕРХ


© Bassguitars.RU 2005-2018

 

Сделано в PASWEB

potapovbass@gmail.com