Official  site  of  Bass-guitars

 

Новости
Бас-гитаристы
Bass Day
Бас аудио CD
Бас-пресса
История в лицах
Заказ инструментов
Уроки и упражнения
Бас табулатуры
Видео уроки
Интерактивная школа
Домашняя студия
Бас усиление
Процессоры
Каталоги бас-гитар
Ссылки
Гостевая книга
Форум
Гитарный тюнер
 
BASS-SHOP

Pokep.DE Сайт о реальной музЫке !

Rambler's Top100

Рейтинг@Mail.ru

Слэп + поп №2

Несколько простых басовых риффов на слэп и поп. Начинайте играть медленно обязательно под метроном! Не спешите. Условные обозначения: H - хаммер, S - слэп, P - поп (подцеп)

G-------------7-9-----------------------------------
D-----9---7H9---------------------------------------
A---------------------------------------------------
E-7-7---0-------------------------------------------
   S S P S  P    P P
G---------------------------------------------------
D-------------7-9-----------------------------------
A-----9---7H9---------------------------------------
E-7-7---0-------------------------------------------
   S S P S  P   P P
G---------------------------------------------------
D-----5H7---5H7-------------------------------------
A-3-3-----7-----0-----------------------------------
E---------------------------------------------------
    S S P   S  P   S
G-------------2-------------------------------------
D-----2---2H4---4-----------------------------------
A---------------------------------------------------
E-0-0---0-------------------------------------------
   S S P S  P   P  P
G---------------------------------------------------
D-----5---3H5---------------------------------------
A---------------------------------------------------
E-0H3---5-------------------------------------------
    S   P  S  P
G---------------------------------------------------
D-----5---3H5---3-----------------------------------
A---------------------------------------------------
E-0H3---0-----0-------------------------------------
    S   P S  P   S  P

Назад    НАВЕРХ


© Bassguitars.RU 2005-2018

 

Сделано в PASWEB

potapovbass@gmail.com