Official  site  of  Bass-guitars

 

Новости
Бас-гитаристы
Bass Day
Бас аудио CD
Бас-пресса
История в лицах
Заказ инструментов
Уроки и упражнения
Бас табулатуры
Видео уроки
Интерактивная школа
Домашняя студия
Бас усиление
Процессоры
Каталоги бас-гитар
Ссылки
Гостевая книга
Форум
Гитарный тюнер
 
BASS-SHOP

Pokep.DE Сайт о реальной музЫке !

Rambler's Top100

Рейтинг@Mail.ru

Слэп + поп

Играйте, используя только слэп и поп (подцеп). Не используйте щепок. Играйте под ровный ритм, желательно под метроном. Играйте медленно и правильно.

G---------------------------------------|
D-------3---------3h5-3-------3---------|
A---3h5---5---3h5---------3h5---5----3h5|
E-0---------0-----------0---------------|

G---------------------------------------|
D-------3---------3h5-3-------3---------|
A---5h3---5---5h3---------5h3---5----3h5|
E-0---------0-----------0---------------|

 G--------------------------------|
D---------------------3h5-----3h5|
A-0-0---3-3---5-5-3h5-----3h5----|
E--------------------------------|
T T T T T T T T T T

G---------------------------------------|
D---------------------3h5-----3h5~~~~~~~|
A-0-0---3-3---5-5-3h5-----3h5-----------|
E---------------------------------------|

Назад    НАВЕРХ


© Bassguitars.RU 2005-2018

 

Сделано в PASWEB

potapovbass@gmail.com