Official  site  of  Bass-guitars

 

Новости
Бас-гитаристы
Bass Day
Бас аудио CD
Бас-пресса
История в лицах
Заказ инструментов
Уроки и упражнения
Бас табулатуры
Видео уроки
Интерактивная школа
Домашняя студия
Бас усиление
Процессоры
Каталоги бас-гитар
Ссылки
Гостевая книга
Форум
Гитарный тюнер
 
BASS-SHOP

Pokep.DE Сайт о реальной музЫке !

Rambler's Top100

Рейтинг@Mail.ru

The Beatles - Day Tripper (простая басовая табулатура для новичков)

Не забывайте про метроном!

вступление
G---------------------------
D----------2-----4-----2----
A--------2---5-2---2-5------
E--0-3-4-------------------
куплет
G---------2-----4-----2
D-------2---5-2---2-5--
A-0-3-4----------------
E----------------------
припев
G--------------
D--------2-1-4-
A----1-4-------
E--2-----------
припев
G-------------------------------------------
D---------5-4-7--------4-3-6-----------2h4--
A-----4-7----------3-6---------4-----------2
E---5------------4--------------------------
Бридж
G-----------4-----6-----4
D---------4---7-4---4-7--
A-----5-6----------------
E---7---------------------

Назад    НАВЕРХ


© Bassguitars.RU 2005-2018

 

Сделано в PASWEB

potapovbass@gmail.com