Official  site  of  Bass-guitars

 

Новости
Бас-гитаристы
Bass Day
Бас аудио CD
Бас-пресса
История в лицах
Заказ инструментов
Уроки и упражнения
Бас табулатуры
Видео уроки
Интерактивная школа
Домашняя студия
Бас усиление
Процессоры
Каталоги бас-гитар
Ссылки
Гостевая книга
Форум
Гитарный тюнер
 
BASS-SHOP

Pokep.DE Сайт о реальной музЫке !

Rambler's Top100

Рейтинг@Mail.ru

Cream - White Room (простая басовая табулатура для новичков)

Это таб песни White Room группы Cream. Очень простой таб для новичков. Легко выучить и просто играть. Начинайте медленно под метроном. Со временем увеличивайте темп. Басовая пульсация всегда должна быть равномерной, все ноты должны звучать ровно, без рывков. Когда почувствуете уверенность пробуйте модифицировать композицию: добавляйте дополнительные ноты к композиции, пробуйте различные техники (например, в данной композиции хорошо звучит короткие вибрато), попробуйте играть мелодию слэпом и т.д.


G--------------------------------------------------
D----5----3--------------5----3--------------------
A--------------5----3--------------5----3----0-----
E--------------------------------------------------

G--------------------------------------------------
D--------------------------------------------------
A--5-5--3-3-------1-3------------------------------
E------------3-3-----------------------------------

G--------------------------------------------------
D--------------------------------------------------
A---5--3-----1--5--3--1--1--0----------------------
E---------3--------------------3-------------------

G--------------------------------------------------
D--------------------------------------------------
A--5-5--3-3-------1-3------------------------------
E------------3-3-----------------------------------

G--------------------------------------------------
D--------------------------------------------------
A---5--3-----1--5--3--1--1--0----------------------
E---------3--------------------3-------------------

G--------------------------------------------------
D----5----3--------------5----3--------------------
A--------------5----3--------------5----3----0-----
E--------------------------------------------------

G--------------------------------------------------
D--------------------------------------------------
A--5-5--3-3-------1-3------------------------------
E------------3-3-----------------------------------

Назад    НАВЕРХ


© Bassguitars.RU 2005-2018

 

Сделано в PASWEB

potapovbass@gmail.com